jumping rain

Conspirator
User avatar
Posts: 3320
Joined: Fri Nov 06, 2009 4:56 am

PostWed Jun 19, 2013 4:41 pm » by kentrb


slow mo rain


Upload to Disclose.tv



:sunny:

Super Moderator
User avatar
Posts: 20352
Joined: Thu Jul 22, 2010 3:20 am
Location: ....at the Shady Rest Hotel

PostWed Jun 19, 2013 4:52 pm » by The57ironman


.

.....that is awesome... :cheers:

.
.

...intolerance will not be tolerated... Image


.

Initiate
User avatar
Posts: 559
Joined: Thu Jun 13, 2013 10:55 am

PostWed Jun 19, 2013 5:01 pm » by Poppa_pygar


As Iron says "Awesome". If you slow it down even more you can see the complex ripples. :flop:

"There's a hole in my head where the rain comes in" "ELO Evil Woman"
If you're talking behind my back, you're in a good position to kiss my ass! Image

Super Moderator
User avatar
Posts: 20767
Joined: Tue Mar 24, 2009 8:22 pm
Location: In your grill

PostWed Jun 19, 2013 7:53 pm » by Slith


Mesmerizing!!!
Image

Conspirator
User avatar
Posts: 3320
Joined: Fri Nov 06, 2009 4:56 am

PostThu Jun 20, 2013 9:50 pm » by kentrb


:cheers: all
:sunny:

Conspirator
Posts: 2332
Joined: Wed Jul 01, 2009 10:34 pm

PostThu Jun 20, 2013 10:48 pm » by Cia212


One of the first songs I ever learned. Tab looks better in plain ASCII.

1 2 3 4 5 6
e:||----------|---|----------|------------|----------|--------------|
B:||-10-10/12-|---|-10-10/12-|------------|-10-10/12-|-----10-9-----|
G:||----------|-9-|----------|-----9------|----------|--9-------11--|
D:||----------|---|----------|------------|----------|--------------|
A:||----------|---|----------|------------|----------|--------------|
E:||----------|---|----------|------------|----------|--------------|


|--------------|-------------|---------------|------------------|
|--------------|----10-9-----|---------------|------10-9--------|
|-9--7--7--9-7-|-9--------11-|-9--7--7--9-7--|--9----------11---|
|--------------|-------------|---------------|------------------|
|--------------|-------------|---------------|------------------|
|--------------|-------------|---------------|------------------|


11 12 13 14
|----------------|--------------------|-9h10-9---------|--------------|
|----------------|------10-9---10-10--|---------10-----|--------------|
|--9--7--7--9-7--|--9-----------------|-------------9--|-------9------|
|----------------|--------------------|----------------|--------------|
|----------------|--------------------|----------------|--------------|
|----------------|--------------------|----------------|--------------|



  • Related topics
    Replies
    Views
    Last post
Visit Disclose.tv on Facebook